lutherie & guitare de luthier


une question a propos d'une gamme...

Les règles d'harmonisation et autres solfèges rythmiques seront à développer sur ce forum.

une question a propos d'une gamme...

Messagede Vlaad » 05 Mar 2009, 18:27

euh voila sur un morceau ou le gratteux joue sur une penta de LA un moment il lance ça, en gros.

e_______15______________________
B___________15__17__15_______________
G__17____________________17__15________
D_______________________________14
A______________________________
E_________________________

il ne me semble pas que ce soit de la penta de la.

mais ça donne une pêche d'enfer a son impro!

je voulais savoir si cela correspondait a quelque chose harmoniquement et si y'a moyen de reutiliser cette "technique" dans d'autres circonstance...?

j'ai remarqué ca dans plusieurs autres chansons juste sur un phrasé le guitariste joue des notes qui devraient pas être la

par exemple sur parisienne walkway la fin du phrasé d'intro
ou sur master of puppets de metallica le phrasé qui précède le solo de james sur l'arpège

je sais pas si c'est tres clair '^^
In Old School We Trust
Avatar de l’utilisateur
Vlaad
Membre
Membre
 
Messages: 111
Inscription: 15 Juin 2006, 18:31

une question a propos d'une gamme...

Messagede cloverflc » 11 Mai 2009, 05:24

je dirais a vu de nez, qu'il s'agit de la 5eme position ( qui est aussi la derniere ) de la gamme penta mineur de La :


-----------------------------------------------15--17-
---------------------------------------15--17--------
------------------------------14--17-----------------
---------------------14--17--------------------------
------------15--17-----------------------------------
---15--17--------------------------------------------

Comme ca c'est difficile a dire, mais tu peux essayer d'enchainer la position suivante ( qui du coup est la 1ere position de la penta mineur de La ):

--------------------------------------------17--20------
------------------------------------17--20--------------
----------------------------17--19----------------------
-------------------17--19-------------------------------
-----------17--19---------------------------------------
---17--20-----------------------------------------------

Voila, tiens moi au courant si c'est ca
En esperant t'avoir un peu aidé
A+
cloverflc
Membre
Membre
 
Messages: 113
Inscription: 23 Mar 2006, 07:38
Localisation: Cluses, Hte savoie (74)


Retourner vers Théorie

 


  • Articles en relation
    Réponses
    Vus
    Dernier message

Au total il y a 3 utilisateurs en ligne :: 0 enregistré, 0 invisible et 3 invités
Le record du nombre d’utilisateurs en ligne est de 5365, le 09 Juil 2014, 23:33

Utilisateurs parcourant ce forum: Aucun utilisateur enregistré et 3 invités

Pas d’anniversaire à fêter aujourd’hui

2 messages • • •

cron